Theme Music

Theme Music - Twinkel Twinkel Little Star guitar tab

haha this tab took me less then 5 minutes to tab

|----------------|---------------|---------------|

|----------7-7---|---------------|---------------|

|------9-9-----9-|-7-7-6-6-------|-9-9-7-7-6-6---|

|--7-7-----------|---------9-9-7-|-------------9-|

|----------------|---------------|---------------|

|----------------|---------------|---------------|

|---------------|----------------|---------------|

|---------------|----------7-7---|---------------|

|-9-9-7-7-6-6---|------9-9-----9-|-7-7-6-6-------|

|-------------9-|--7-7-----------|---------9-9-7-|

|---------------|----------------|---------------|

|---------------|----------------|---------------|

if you cant play that, burn your guitar then kill yourself.

Tabbed by:

Travis Spicuzza

Get this song at:  amazon.com sheetmusicplus.com

Share your thoughts

0 Comments found