Theme Music

Theme Music - Twilight Zone guitar tab

tabs-database.com[http://www.tabs-database.com.com/]

Play as many times as you want

--------------------------------------------------------------------

--9-10-9---9-10-9---9-10-9---9-10-9---7-8-7--7-8-7--7-8-7--7-8-7----

---------10-------10-------10-------10------8------8------8------8--

--------------------------------------------------------------------

--------------------------------------------------------------------

--------------------------------------------------------------------

--------------------------------------------------------------------

--9-10-9---9-10-9---9-10-9---9-10-9---7-8-7--7-8-7--7-8-7--7-8-7----

---------10-------10-------10-------10------8------8------8------8--

--------------------------------------------------------------------

--------------------------------------------------------------------

--------------------------------------------------------------------

This tab is 100% correct. Please Rate:)

Added by tabs-database.com and our distinguished partners

Get this song at:  amazon.com sheetmusicplus.com

Share your thoughts

0 Comments found