Theme Music

Theme Music - The Entertainer guitar tab

Very Simple Song. No hammer, no pull offs, no bends. Vibrato may be applied. Only 1 guitar

is needed. If played with 2 guitars, 1 plays tab, the other plays chords. Reststroke

and classical guitars are strongly recommended

Guitar 1

|----0------------------0--------------

|--3---1-----0--------3---1-----0------

|--------2-----0------------2-----0----

|--------------------------------------

|------------------Guitar 2 plays this-

|--------------------------------------

Together:

|------------------------------3----3--

|------------------------------0----3--

|------------------------------0-or-4--

|--0-2-------------------------0----5--

|------3-0---2-0---------------2----5--

|----------------4-3-----------3----3--

C

|--------------------------------------

|-------------1-------1-------1~-------

|--------------------------------------

|--0-1------2-------2-------2----------

|--------------------------------------

|--------------------------------------

F G C

|------------0-----0-------------0----3

|--1-1-1-3-4---1-3-----0-3---1~--1----5

|--------------------------------0-or-5

|--------------------------------2----5

|--------------------------------3----3

|--------------------------------------

C

|--------------------------------------

|-------------1-------1-------1~-------

|--------------------------------------

|--0-1------2-------2-------2----------

|--------------------------------------

|--------------------------------------

D7 G

|------------0---------------3----3----

|----------1-----3-1---3-----0----3----

|--2-0---2-----------2-------0-or-4----

|------4---------------------0----5----

|----------------------------2----5----

|----------------------------3----3----

C

|--------------------------------------

|-------------1-------1-------1~-------

|--------------------------------------

|--0-1------2-------2-------2----------

|--------------------------------------

|--------------------------------------

F G C

|------------0-----0-------------0----3

|--1-1-1-3-4---1-3-----0-3---1~--1----5

|--------------------------------0-or-5

|--------------------------------2----5

|--------------------------------3----3

|--------------------------------------

Guitar 1:

|--------0-----0---------0-----0-------

|--1-3-1---1-3-----1-3-1---1-3---------

|--------------------------------------

|--------------------------------------

|--------------------------------------

|--------------------------------------

Guitar 2:

|--------------------------------------

|--------------------------------------

|--------------------------------------

|--------------------------------------

|--------3-------2---------------------

|------------------------5-----4-------

Guitar 1:

|--------0-----0-------------0----3----

|--1-3-1---1-3-----0-3--1~---1----5----

|----------------------------0-or-5----

|----------------------------2----5----

|----------------------------3----3----

|--------------------------------------

Guitar 2:

|----------------------------0----3----

|----------------------------1----5----

|--------------0-------------0-or-5----

|----------2-3-------0-------2----5----

|------------------2----3~---3----3----

|--------3-----------------------------

C E

|--0-1-2-3---5-3---0-1-2-3---5-3-------

|--------------------------------------

|--------------------------------------

|--------------------------------------

|--------------------------------------

|--------------------------------------

F C

|--0--------------0--------------------

|----1------0-1-3---3-1-3---1----------

|------0--2--------------------0-----0-

|---------------------------------4----

|--------------------------------------

|--------------------------------------

F C

|----------------------0-3-3-0---------

|--1----1----1-------1---------1-------

|-----2----2---2---0-------------0-----

|--------------------------------------

|--------------------------------------

|--------------------------------------

F G C

|------------0-----0---------0----3----

|-------1-------3------1~----1----5----

|--2-------------------------0-or-5----

|----------------------------2----5----

|----------------------------3----3----

|--------------------------------------

C E

|--0-1-2-3---5-3---0-1-2-3---5-3-------

|--------------------------------------

|--------------------------------------

|--------------------------------------

|--------------------------------------

|--------------------------------------

F C

|--0--------------0--------------------

|----1------0-1-3---3-1-3---1----------

|------0--2--------------------0-----0-

|---------------------------------4----

|--------------------------------------

|--------------------------------------

F C

|----------------------0-3-3-0---------

|--1----1----1-------1---------1-------

|-----2----2---2---0-------------0-----

|--------------------------------------

|--------------------------------------

|--------------------------------------

F G C

|------------0-----0---------0----3----

|-------1-------3------1~----1----5----

|--2-------------------------0-or-5----

|----------------------------2----5----

|----------------------------3----3----

|--------------------------------------

Good song. Enjoy

Get this song at:  amazon.com

Share your thoughts

0 Comments found