Theme Music

Theme Music - Super Mario Brothers guitar tab

tabs-database.com[http://www.tabs-database.com.com/]

SUPER MARIO UNPLUGGED

classical guitar solo

Composed by: Koji Kondo

Arranged by: Sean Gordon

Posted by: Justin Roberts-Padilla

|-12--12--12-------12---15------

|--------------13---------------

|-11--11--11---11--11---12---12-

|-------------------------------

|----------------------------10-

|-10--10--10---10--10-----------

|-8---3-------5--7--6--5--------0--3--5--1---3--0-------------

|-5---1---5------------------1----------------------1---3-----

|-5---0---5---5--7--6--5--------0--4--5--2---4--0------------- x2

|-5---2---5------------------2----------------------2---------

|---------3-------------------------------------------------2-

|-------------------------------------------------------------

|-----3--2--1--0-----0----------------------------------3--2--1--0------0-----8--8-8-----

|-----5--4--3--1-----1-------------1---------1-3--------5--4--3--1------1-----6--6-6-----

|---------0------------------1-2---------2-------------------0-------------------------0-

|-------------------------3--2-3---------------------------------------------------------

|-3---------------3----------------3----------------3-------------------3----------------

|----------------------------------------------------------------------------------------

|-----3--2--1--0-------0--------------------------------------------------------------

|-----5--4--3--1-------1-----------1---------1-3----------4-----3-----1---------------

|---------0-------------------1-2---------2---------------5-----3-----0---------------

|-----------------------------2-3---------------------------------------------5--5----

|-3----------------3---------------3----------------3-----------1-----3-------------3-

|---------------------------------------------------------4---------------------------

|-------------------------------------------------------------

|----------------5------------------------------------5-------

|-5--5--5--5--7-----5----2--0-------5--5--5---5--7------------

|-6--6--6--6--8--5------------------6--6--6---6--8----5-------

|-------6-----------7----3--3-------------6--------------3----

|-4-----------------------------3---4-----------------------3-

|--------------------------------

|----------------5---------------

|-5--5--5--5--7-----5---2--0-----

|-6--6--6--6--8--5---------------

|-------6-----------7---3--3-----

|-4----------------------------3-

|-12--12--12-------12---15------

|--------------13---------------

|-11--11--11---11--11---12---12-

|-------------------------------

|----------------------------10-

|-10--10--10---10--10-----------

|-0---------------------------1-----1----------------5---5---5---3---1---0-----------------

|-1---1-----------------------1-----1----------0-----6---6---6---5---3---1---1-------------

|-----2---0------1-----2----------------2------0---------------0-------------2---2---0----- x2

|---------2------2-----3----------------3----------------------------------------3---2-----

|-3--------------------------------------------------------8-----------------3-----------3-

|-------------3--------1------1-----1---1------3-------------------------------------------

Starman Theme

|---------------------------------------------------------------------------

|-13--13--13----13--13-----13---13-------12--12--12-----12--12-----12----12-

|-10--10--10----10--10-----10---10-------12--12--12-----12--12-----12----12- x4

|------------12-----12--12--------------------------10------10--10----------

|---------12-------------------------------------10-------------------------

|-10-------------------------------------8----------------------------------

|-12--12--12-------12---15------

|--------------13---------------

|-11--11--11---11--11---12---12-

|-------------------------------

|----------------------------10-

|-10--10--10---10--10-----------

Up The Flag Theme

|-3/-------------------------------------------------------------------------------------

|-----------------5---8-5-------------------9-4------------------------11----11-11-11-13-

|---------------5-----9-5---------------8---8-5-------------------10---------------------

|----------2-5---------------------6/10---------------------8/12-------12----12-12-12-14-

|--------3----------------------6------------------------8-------------------------------

|------3--------------------4/8---------------------6/10---------------------------------

STUFF I TABBED OUT......

Ending Theme

|--------------------------------------------------

|--------------------------------------------------

|----0--2-0--2-4--5-4-3-2-----0--2-0--1-2--3-2-1-0-

|-2------------------------2-----------------------

|--------------------------------------------------

|--------------------------------------------------

|---------------------------------------------------

|----0-1--------------------------------------------

|-2-------2--0--1-2-----------------0---------------

|--------------------2--2-0---2-0-------------------

|---------------------------3-----3------------0--2-

|----------------------------------------3--3-------

|-0--3-5--3--5-7--8--7-6-5--0--3--5-3--4-5--6-5-4-3-

|---------------------------------------------------

|---------------------------------------------------

|---------------------------------------------------

|---------------------------------------------------

|---------------------------------------------------

|-5--7-8--5--3--4-5-12--12-12-12-12--8----8-

|--------------------------------------10---

|-------------------------------------------

|-------------------------------------------

|-------------------------------------------

|-------------------------------------------

|-8-8--7-6-5--12-12-11-12-13-12-9----12-11-12-11-12-10-8----

|---------------------------------10---------------------10-

|-----------------------------------------------------------

|-----------------------------------------------------------

|-----------------------------------------------------------

|-----------------------------------------------------------

|----------10--10-10-9-10-12-10------10-10--8--8-8-10-11-12----15-

|-10--10-8----------------------12-8------------------------------

|-----------------------------------------------------------------

|-----------------------------------------------------------------

|-----------------------------------------------------------------

|-----------------------------------------------------------------

|-5--3-5--3--5-7--7-5---5-3-5-3--4-5--5-3-

|-----------------------------------------

|-----------------------------------------

|-----------------------------------------

|-----------------------------------------

|-----------------------------------------

|-5--7-8--5--3--4-5-12--12-12-----12-12------15-15-------15-15-------

|--------------------------------------------------------------------

|-----------------------------9-9-------9-9--------12-12-------12-12-

|--------------------------------------------------------------------

|--------------------------------------------------------------------

|--------------------------------------------------------------------

|-20~~-

|------

|------

|------

|------

|------

Overworld Theme

|---------------------3-5-3-

|---------------------------

|-------0-2-0---------------

|-5-xxx-------5-5-5---------

|-3-xxx-------3-3-3---------

|---------------------------

|---------------------5-7-5-

|---------3-----------------

|-2-xxx-2---2--2-2-2--------

|-0-xxx--------0-0-0--------

|---------------------------

|---------------------------

|---------------------------

|---------------------------

|-------0-2-0---------------

|-5-xxx-------9--8--7--6--5-

|-3-xxx-------7--6--5--4--3-

|---------------------------

Donut Plains Overworld Theme

|-------8p7h8---------5---------8p7h8-------7-

|---------------------------------------------

|---------------------------------------------

|---------------------------------------------

|---------------------------------------------

|--8-8-----------5--------1-1-----------3-----

|--------8p7h8-------5-----8-5--------------

|--------------------------------6---5------

|-----------------------------------------7-

|-------------------------------------------

|-------------------------------------------

|--8-8-----------5---------5---------3----7-

|------8p7h8-------5---------------------15h17p15-

|---------------------------------6--8------------

|-------------------------7--9--------------------

|-------------------------------------------------

|-------------------------------------------------

|-8-8----------5----------------------------------

Star Road Overworld Theme

|-----------------------------------------------

|-13-13-13-10--13--10-12--12-12-11-12--10-11-12-

|-10-10-10-10--10--10-12--12-12-12-12-----------

|-----------------------------------------------

|----------12----------8--------10--------------

|-10--------------------------------------------

Added by tabs-database.com and our distinguished partners

Get this song at:  amazon.com sheetmusicplus.com

Share your thoughts

0 Comments found