Theme Music

Theme Music - Sonic The Hedgehog Boss Theme guitar tab

tabs-database.com[http://www.tabs-database.com.com/]

| | | | | | | |

|8---5---5---8---5---5---8---5---|7-------7-------7-------7-------|

|--------------------------------|--------------------------------|

|--------------------------------|--------------------------------|

|--------------------------------|--------------------------------|

|--------------------------------|--------------------------------|

|--------------------------------|--------------------------------|

| | | | | | | |

|8---5---5---8---5---5---8---5---|7-------7-------7-------7-------|

|--------------------------------|--------------------------------|

|--------------------------------|--------------------------------|

|--------------------------------|--------------------------------|

|--------------------------------|--------------------------------|

|--------------------------------|--------------------------------|

| | | | | | | |

|--------------------------------|--------------------------------|

|----0---1-------3-------1-------|0---1---0-----------------------|

|2-------------------------------|------------0-----------0-------|

|--------------------------------|--------------------2-----------|

|--------------------------------|--------------------------------|

|--------------------------------|--------------------------------|

| | | | | | | |

|--------------------------------|----------------0---------------|

|----0---1-------3-------1-------|0---1---3---4-------------------|

|2-------------------------------|--------------------------------|

|--------------------------------|--------------------------------|

|--------------------------------|--------------------------------|

|--------------------------------|--------------------------------|

| | | | | | | |

|--------------------------------|--------------------------------|

|----0---1-------3-------1-------|0---1---0-----------------------|

|2-------------------------------|------------0-----------0-------|

|--------------------------------|--------------------2-----------|

|--------------------------------|--------------------------------|

|--------------------------------|--------------------------------|

| | | | | | | |

|--------------------------------|----------------0---------------|

|----0---1-------3-------1-------|0---1---3---4-------------------|

|2-------------------------------|--------------------------------|

|--------------------------------|--------------------------------|

|--------------------------------|--------------------------------|

|--------------------------------|--------------------------------|

| | | | | | | |

|--------------------------------|--------------------------------|

|----0---1-------3-------1-------|0---1---0-----------------------|

|2-------------------------------|------------0-----------0-------|

|--------------------------------|--------------------2-----------|

|--------------------------------|--------------------------------|

|--------------------------------|--------------------------------|

| | | | | | | |

|--------------------------------|----------------0---------------|

|----0---1-------3-------1-------|0---1---3---4-------------------|

|2-------------------------------|--------------------------------|

|--------------------------------|--------------------------------|

|--------------------------------|--------------------------------|

|--------------------------------|--------------------------------|

| | | | | | | |

|8---10--12------13------12------|8---10--8---7-------3---7-------|

|--------------------------------|--------------------------------|

|--------------------------------|--------------------------------|

|--------------------------------|--------------------------------|

|--------------------------------|--------------------------------|

|--------------------------------|--------------------------------|

| | | | | | | |

|8---10--12------13------12------|10--12--13--14--15--------------|

|--------------------------------|--------------------------------|

|--------------------------------|--------------------------------|

|--------------------------------|--------------------------------|

|--------------------------------|--------------------------------|

|--------------------------------|--------------------------------|

Added by tabs-database.com and our distinguished partners

Get this song at:  amazon.com

Share your thoughts

0 Comments found