Theme Music

Theme Music - Skip To My Lou guitar tab

tabs-database.com[http://www.tabs-database.com.com/]

tabbed by:chris d\\'Entremont

standerd tuning, eBGDAE

sounds very evil if played very slow with high distortion and echo

e|-0-0-----0-0--3---------------1--0-0-----0-0-3-|

B|-----1-1----------3-3-0-0-3-3--------1-1-------|

G|-----------------------------------------------|

D|-----------------------------------------------|

A|-----------------------------------------------|

E|-----------------------------------------------|

e|---1-0----------------0-0-----0-00-3-----------|

B|-3-----3--1--1------------1-1---------3-3-0-0--|

G|-----------------------------------------------|

D|-----------------------------------------------|

A|-----------------------------------------------|

E|-----------------------------------------------|

e|------1---0-0-----0-00-3----11-0---------------|

B|-3-33---------1-1---------3------3--1---1------|

G|-----------------------------------------------|

D|-----------------------------------------------|

A|-----------------------------------------------|

E|-----------------------------------------------|

e|-0-00------0-00-3------------------1-----------|

B|------1-1----------3-33-0-0---3-33-------------|

G|-----------------------------------------------|

D|-----------------------------------------------|

A|-----------------------------------------------|

E|-----------------------------------------------|

e|-0-00------0-00-3-----11-0---------------------|

B|------1-1-----------3------3--1--1-------------|

G|-----------------------------------------------|

D|-----------------------------------------------|

A|-----------------------------------------------|

E|-----------------------------------------------|

Added by tabs-database.com and our distinguished partners

Get this song at:  amazon.com sheetmusicplus.com

Share your thoughts

0 Comments found