Theme Music

Theme Music - Sesame Street guitar tab

tabs-database.com[http://www.tabs-database.com.com/]

e --8-5---------5--8-5----------8-5--------5-7-8-10~--

B -------6--6-8---------6~-----------6-6-8---------------

G -----------------------------------------------------------

D -----------------------------------------------------------

A -----------------------------------------------------------

E -----------------------------------------------------------

e -8-10-11-10-8----------------------------8-8-8~--------

B-------------------10-8----8-10-11-10-8-----------------

G-------------------------------------------------------------

D-------------------------------------------------------------

A-------------------------------------------------------------

E-------------------------------------------------------------

e --------------------8-8-8~--------

B ----8-10-11-10-8---------------

G -----------------------------------

D -----------------------------------

A -----------------------------------

E -----------------------------------

THIS IS THE WAY DAMON V.D.S. PLAYED IT AT THE ‘BIG DAY OUT’. IF YOU HAVN’T HEARD HIS STUFF I TOTALLY RECOMEND IT, HE’S A GREAT GUITARIST/COMEDIAN.

Added by tabs-database.com and our distinguished partners

Get this song at:  amazon.com sheetmusicplus.com

Share your thoughts

0 Comments found