Theme Music

Theme Music - Schindlers List guitar tab

tabs-database.com[http://www.tabs-database.com.com/]

Song: theme from Schindler’s list

Tabbed by: Marre

So this is the song that keeps returning in the great movie. ENJOY!!!

E-----7----------7----------8------7-----5-----3-----5----------3-----5-----7--------- --

B----------5-----------5------------------------------------3------------------------- --

G------------------------------------------------------------------------------------- --

D------------------------------------------------------------------------------------- --

A------------------------------------------------------------------------------------- --

E------------------------------------------------------------------------------------- --

E-----7----------7----------8------7-----5-----3-----5----------3-----5-----7---------- --

B----------5-----------5------------------------------------3-------------------------- --

G-------------------------------------------------------------------------------------- --

D-------------------------------------------------------------------------------------- --

A-------------------------------------------------------------------------------------- --

E-------------------------------------------------------------------------------------- --

Any questions or suggestions just mail it to me at webmaster at tabs-database.com.com

Added by tabs-database.com and our distinguished partners

Get this song at:  amazon.com sheetmusicplus.com

Share your thoughts

0 Comments found