Theme Music

Theme Music - Pulp Fiction Theme guitar tab

tabs-database.com[http://www.tabs-database.com.com/]

this is the best tab you will find of this song

E|----------------------------------------------------------| tripple pick each note like a mother-fcuka

B|----------------------------------------------------------|

G|----------------------------------------------------------|

D|----------------------------------------------------------|

A|----------------------------------------------------------|

E|-0-0-0-0-0-0-0-1-4-5-7-8-11-8-7---------------------------| x2

E|----------------------------------------------------------|

B|----------------------------------------------------------|

G|----------------------------------------------------------|

D|----------------------------------------------------------|

A|----------------------------------------------------------|

E|-8-7-8-7h8p7-5--7-5-7-5h7p5-4-0-4-4-4---------------------|

E|----------------------------------------------------------|

B|----------------------------------------------------------|

G|----------------------------------------------------------|

D|----------------------------------------------------------|

A|----------------------------------------------------------|

E|-7-5-7-5h7p5-4--5-4-5-4h5p4--1-0-0-0----------------------|

E|-12/////////////////////////0-0-0-0-0-0-0-1-4-5-7-8-11-8-7|

B|----------------------------------------------------------|

G|----------------------------------------------------------|

D|----------------------------------------------------------|

A|----------------------------------------------------------|

E|----------------------------------------------------------|x2

E|-8-7-8-7h8p7-5--7-5-7-5h7p5-4-0-4-4-4---------------------|

B|----------------------------------------------------------|

G|----------------------------------------------------------|

D|----------------------------------------------------------|

A|----------------------------------------------------------|

E|----------------------------------------------------------|

E|-7-5-7-5h7p5-4--5-4-5-4h5p4--1-0-0-0----------------------|

B|----------------------------------------------------------|

G|----------------------------------------------------------|

D|----------------------------------------------------------|

A|----------------------------------------------------------|

E|----------------------------------------------------------|

Added by tabs-database.com and our distinguished partners

Get this song at:  amazon.com

Share your thoughts

0 Comments found