Theme Music

Theme Music - Profesor Salomon guitar tab

tabs-database.com[http://www.tabs-database.com.com/]

1---------------------------14-17-17-19-17-15-14----

2------15-15-14~-14-15-15~15--------------------15~-

3---------------------------------------------------

4---------------------------------------------------

5---------------------------------------------------

6---------------------------------------------------

1-----------------------14-17-17-19-17-15-14-------

2--15-15-14~-14-15-15~15--------------------17-15--

3--------------------------------------------------

4--------------------------------------------------

5--------------------------------------------------

6--------------------------------------------------

A too lo ninio lo kero mucho.

eso seria toa la carncion po linios hasta la proximia!

Added by tabs-database.com and our distinguished partners

Get this song at:  amazon.com sheetmusicplus.com

Share your thoughts

0 Comments found