Theme Music

Theme Music - Power Rangers Theme Song guitar tab

tabbed by BigDumbDude123

tabs-database.com[http://www.tabs-database.com.com/]

There are 2 guitars in this song. I labeled them as rhythm and lead. It should be pretty easy to learn.

RYTHEM GUITAR

INTRO

e---------------------------------

B---------------------------------

G-----9-----9-----9-----9----9/10- 4X

D-----9-----9-----9-----9----9/10-

A---- 7-----7-----7-----7----7/8--

E-0-0-0-0-0-0-0-0-0-0-0-0-0-0-----

... ... ... ... ...

INTRO CONTINUED

e---------------------------------------------------------

B---------------------------------------------------------

G-5-5-5-5-5-5-5-5-7-7-7-7-7-7-7-7-4-4-4-4-4-4-4-4-9-9-9-9-

D-5-5-5-5-5-5-5-5-7-7-7-7-7-7-7-7-4-4-4-4-4-4-4-4-9-9-9-9-

A-3-3-3-3-3-3-3-3-5-5-5-5-5-5-5-5-2-2-2-2-2-2-2-2-7-7-7-7-

E---------------------------------------------------------

e-----------------------------------------------------------

B-----------------------------------------------------------

G-7-7-7-7-5-5-5-5-5-5-5-5-7-7-7-7-7-7-7-7-4-4-4-4-4-4-4-4-9~

D-7-7-7-7-5-5-5-5-5-5-5-5-7-7-7-7-7-7-7-7-4-4-4-4-4-4-4-4-9~

A-5-5-5-5-3-3-3-3-3-3-3-3-5-5-5-5-5-5-5-5-2-2-2-2-2-2-2-2-7~

E-----------------------------------------------------------

VERSE

\\"Go Go Power Rangers...\\"

e------------------------------------------------------------

B------------------------------------------------------------

G-9-9--8-9-10--9--7-7-7-7-7--5-5-5-5-5-5-5-5-7-7-7-7-7-7-7-7- X2

D-9-9--8-9-10--9--7-7-7-7-7--5-5-5-5-5-5-5-5-7-7-7-7-7-7-7-7-

A-7-7--6-7--8--7--5-5-5-5-5--3-3-3-3-3-3-3-3-5-5-5-5-5-5-5-5-

E------------------------------------------------------------

... ... . ... ... .

VERSE CONTINUED

e-------------------------------------

B-------------------------------------

G-9-9-9-9-9-9---9-9-9-9-9-9-9-9-10--9-

D-9-9-9-9-9-9---9-9-9-9-9-9-9-9-10--9-

A-7-7-7-7-7-7---7-7-7-7-7-7-7-7--8--7-

E-------------------------------------

BRIDGE

e------------------------------------------------

B------------------------------------------------

G-9------9-----9----9-----9----9---9----9----9---

D-9------9-----9----9-----9----9---9----9----9---

A-7------7-----7----7-----7----7---7----7----7---

E----0-0---0-0---0----0-0---0-0--0---0-0--0-0--0-

... ... . ... ... . ... ... .

e------------------------

B------------------------

G-9-10-11-12-13-14-15-16-

D-9-10-11-12-13-14-15-16-

A-7--8--9-10-11-12-13-14-

E------------------------

Repeat verse and verse continued

LEAD GUITAR

INTRO

Come in on 4th time

(Play really fast)

e-10-10-7-7-10-10-7-7-10-10-7-7-10-10-7-7-12-12-9-9-12-12-9-9-12-12-9-9-12-12-9-9

B--------------------------------------------------------------------------------

G--------------------------------------------------------------------------------

D--------------------------------------------------------------------------------

A--------------------------------------------------------------------------------

E--------------------------------------------------------------------------------

e-14-14-11-11-14-14-11-11-14-14-11-11-14-14-11-11-15-15-12-12-15-15-12-12-15-15

B------------------------------------------------------------------------------

G------------------------------------------------------------------------------

D------------------------------------------------------------------------------

A------------------------------------------------------------------------------

E------------------------------------------------------------------------------

e-12-12-15-15-12-12-16-16-13-13-16-16-13-13-16-16-13-13-16-16-13-13-16-16-13-13-16~

B----------------------------------------------------------------------------------

G----------------------------------------------------------------------------------

D----------------------------------------------------------------------------------

A----------------------------------------------------------------------------------

E----------------------------------------------------------------------------------

VERSE

( wait 1 beat after the rythem guitar starts )

\\"Go Go Power Rangers...\\"

e--12~--17~--15~--12-14~--12~--17~--15~--14-12~

B----------------------------------------------

G---------------------------------------------- 2X

D----------------------------------------------

A----------------------------------------------

E----------------------------------------------

VERSE CONTINUED

e-------------------------------------

B-------------------------------------

G-9-9-9-9-9-9~--9-9-9-9-9-9-9-9-10--9-

D-9-9-9-9-9-9~--9-9-9-9-9-9-9-9-10--9-

A-7-7-7-7-7-7~--7-7-7-7-7-7-7-7--8--7-

E-------------------------------------

e--------------------------------------------------------------

B--------------------------------------------------------------

G--9---------9--------9----9----9----9--9-10-11-12-13-14-15-16-

D--9---------9--------9----9----9----9--9-10-11-12-13-14-15-16-

A--7---------7--------7----7----7----7--7--8--9-10-11-12-13-14-

E---------0---------0----0---0----0---0------------------------

Repeat verse and verse continued

End on

e---

B---

G-9-

D-9-

A-7-

E---

I learned this song from listening to the show and the midi. The midi helps a lot. I may be a little off, but it sounds close...enjoy...

Added by tabs-database.com and our distinguished partners

Get this song at:  amazon.com sheetmusicplus.com

Share your thoughts

0 Comments found