Theme Music

Theme Music - Pirates Of The Carribean guitar tab

tabs-database.com[http://www.tabs-database.com.com/]

Pirates of the Caribean

e|----------------------------------|

b|----------------------------------|

g|----------------------------------|

d|----5--7--55----------------------|

a|--7-----------77-55-3-------------|

e|----------------------------------|

"yo ho yo ho, a pirates life for me"

e|-------------------------------------------------|

b|-------------------------------------------------|

g|-------------------------------------------------|

d|-----------7-------------333----22----000-2-3-5--|

a|--77777777---7----5h7-7------55----33------------|

e|---------------8---------------------------------|

Anyone who has been to disneyland will know this song

Added by tabs-database.com and our distinguished partners

Get this song at:  amazon.com sheetmusicplus.com

Share your thoughts

0 Comments found