Theme Music

Theme Music - Phoenix Nights guitar tab

tabs-database.com[http://www.tabs-database.com.com/]

Theme song: "Peter Kay's Phoenix Nights"

Normally played on a xylophone, arranged for guitar

e---------------------------|---------------------|-------------|

B---------5-3--0-----0--1---|---------------------|-------------|

G----0-4----------0---------|-2-0---0-2-----------|-------------|

D-2-------------------------|-----3------3--0-----|-------------|

A---------------------------|---------------------|-------------|

E---------------------------|---------------------|-------------|

e---------------------------|---------------------|-------------|

B---------5-3--0-----0--1---|------------1--3-----|-1--0--------|

G----0-4----------0---------|-2-0---0-2-----------|------2--0---|

D-2-------------------------|-----3---------------|-----------3-|

A---------------------------|---------------------|-------------|

E---------------------------|---------------------|-------------|

e---------------------------|---------------------|-------------|

B---------5-3--0--1---------|---------------------|-------------|

G----0-4--------------------|---------------------|-------------|

D-2-------------------------|---------------------|-------------|

A---------------------------|--3------------------|-------------|

E---------------------------|---------------------|-------------|

Added by tabs-database.com and our distinguished partners

Get this song at:  amazon.com sheetmusicplus.com

Share your thoughts

0 Comments found