Theme Music

Theme Music - Philippine National Anthem guitar tab

tabs-database.com[http://www.tabs-database.com.com/]

|--3-2-5-3--------5-7-9-7-5-7-3-------3-2-5-3--------5-7-9-7-5-3--|

|----------3----------------------------------3-------------------|

|-----------------------------------------------------------------|

|-----------------------------------------------------------------| 2x

|-----------------------------------------------------------------|

|-----------------------------------------------------------------|

|--3-3-3--5-5----5-5----7-7-7-9-9-11-9--3-3-3--5-5----5-5----7-7-7-5-7-5-3-|

|-------------3-3----3-3--------------------------3-3----3-3---------------|

|--------------------------------------------------------------------------|

|--------------------------------------------------------------------------|

|--------------------------------------------------------------------------|

|--------------------------------------------------------------------------|

|--3-3-3-9-9-11-11-13-11-9-11-13---14-13-11-13-9-11-8-8-9--|

|----------------------------------------------------------|

|----------------------------------------------------------| 2x

|----------------------------------------------------------|

|----------------------------------------------------------|

|----------------------------------------------------------|

Added by tabs-database.com and our distinguished partners

Get this song at:  amazon.com

Share your thoughts

0 Comments found