Theme Music

Theme Music - Phantom Of The Opera guitar tab

tabs-database.com[http://www.tabs-database.com.com/]

The Movie is awesome! But here is what i figured out from the movie

This Sounds Better With Distortion on the electric

1&2&3&4&1&2&3&4&1&2&3&4&1&2&3&4&1&2&3&4&1&2&3&4&1&2&3&4&1&2|

|-------|-------|-------|-------|-------|-------|-------|---|

|-------|-------|-------|-------|-------|-------|-------|---|

|0------|----0--|-------|-------|0------|----0--|-------|---|

|-------|-----4321------|----1234-------|-----4321------|---|

|-------|-------|-------|-------|-------|-------|-------|---|

|-------|-------|-------|-------|-------|-------|-------|---|

1&2&3&4&1&2&3&4&1&2&3&4&1&2&3&4&1&2&3&4&1&2&3&4&1&2&3&4&1&2|

|-------|-------|-------|-------|-------|-------|-------|---|

|-------|-------|-------|-------|-------|-------|-------|---|

|0------|----0--|-------|-------|0------|----0--|-------|---|

|-------|-----4321------|----1234-------|-----4321------|---|

|-------|-------|-------|-------|-------|-------|-------|---|

|-------|-------|-------|-------|-------|-------|-------|---|

1&2&3&4&1&2&3&4&1&2&3&4&1&2&3&4&1&2&3&4&1&2&3&4&1&2&3&4&1&2|

|-------|-------|-------|-------|-------|-------|-------|---|

|-------|-------|-------|-------|-------|-------|-------|---|

|--0-5-0|3--11--|--3---0|-------|0-5-0-3|-11----|--3---0|---|

|-------|---^^--|3----3-|-------|-------|-------|3----3-|---|

|-------|---^^--|-------|-------|-------|-------|-------|---|

|-------|----^--|-------|-------|-------|-------|-------|---|

that ^right there is 1 1 not 11 its counted as 1&

Please Rate This, its my very own first Tab.

Added by tabs-database.com and our distinguished partners

Get this song at:  amazon.com sheetmusicplus.com

Share your thoughts

0 Comments found