Theme Music

Theme Music - Phantasm guitar tab

tabs-database.com[http://www.tabs-database.com.com/]

Movie: The Phantasm Series

Tabbed by: Chris (cbmartinez24)

This is for all you Phantasm fans out there. I've heard versions played in both

E and E#, but I know for sure that the theme available at www.phantasm.com is played

in E.

E|-----------------|

B|-----------------|

G|---4-5-2-4-------|

D|-2---------5-4---|

A|---------------5-|

E|-----------------|

And if you have the E# version

E|-----------------|

B|-----------------|

G|---5-6-3-5-------|

D|-3---------6-5---|

A|---------------6-|

E|-----------------|

Have fun.

Added by tabs-database.com and our distinguished partners

Get this song at:  amazon.com sheetmusicplus.com

Share your thoughts

0 Comments found