Theme Music

Theme Music - Peter Gun guitar tab

tabs-database.com[http://www.tabs-database.com.com/]

This is a very easy song.

e-----------------------------------------------------------------------------------------------------------------

B-----------------------------------------------------------------------------------------------------------------

G-----------------------------------------------------------------------------------------------------------------

D-----------------------------------------------------------------------------------------------------------------

A-----------------------------------------------------------------------------------------------------------------

E---------0---0---3---0---4---0---5---4---------------------------------------------------------------------------

I like to play it in power chords thoughso here it is in power chords

e-----------------------------------------------------------------------------------------------------------------

B-----------------------------------------------------------------------------------------------------------------

G-----------------------------------------------------------------------------------------------------------------

D---------2---2---5---2---6---2---7---6

A---------2---2---5---2---6---2---7---6---------------------------------------------------------------------------

E---------0---0---3---0---4---0---5---4---------------------------------------------------------------------------

There it is for you.

Added by tabs-database.com and our distinguished partners

Get this song at:  amazon.com sheetmusicplus.com

Share your thoughts

0 Comments found