Theme Music

Theme Music - Peoples Courtpunkway And Mormal guitar tab

tabs-database.com[http://www.tabs-database.com.com/]

__----------------------------------------------------------------------------------

peoples court

-------------------------------------------------------------------------------------

Punk way

*10

E------------------------------------------------------------------------------------B------------------------------------------------------------------------------------

G------------------------------------------------------------------------------------

D-----------3-5--------------3-5-6---------------------------------------------------

A-3-5-5-----1-3----3-5-5-----1-3-4---------------------------------------------------

E-1-3-3------------1-3-3-------------------------------------------------------------

non punk way

*10

E------------------------------------------------------------------------------------

B------------------------------------------------------------------------------------

G------------------------------------------------------------------------------------

D------------------------------------------------------------------------------------

A-----------1-3---------------1-3-4--------------------------------------------------

E-1-3-3-------------1-3-3------------------------------------------------------------

Added by tabs-database.com and our distinguished partners

Get this song at:  amazon.com

Share your thoughts

0 Comments found