Theme Music

Theme Music - Oompa Lumpa Song guitar tab

tabs-database.com[http://www.tabs-database.com.com/]

Oompa Lumpa Song

Im pretty sure this is right, rate it if u want.

e---------------------------------|

B---------------------------------|

G---------------------------------|

D--2---2---2--2-0-------2-2-------|

A----0---0--0-------3-2-----3-0-2-|

E---------------------------------|

e---------------------------------|

B---------------------------------|

G---------------------------------|

D--2---2---2---2-0------0-0-------|

A----0---0---0------3-2-----3-2-0-|

E---------------------------------|

e---------------------------------|

B---------------------------------|

G-2-2-4-2-2-4-5-4-2-0-------------|

D---------------------------------|

A---------------------------------|

E---------------------------------|

e---------------------------------|

B---------------------------------|

G---------------------------------|

D-0-0-2-0-0-2-3-2-0---------------|

A---------------------------------|

E---------------------------------|

e---------------------------------|

B---------------------------------|

G-2-2-4-2-2-4-5-4-2-0-------------|

D---------------------------------|

A---------------------------------|

E---------------------------------|

e---------------------------------|

B---------------------------------|

G------------------0--------------|

D--0-0-2-0-0-2-3-0----------------|

A---------------------------------|

E---------------------------------|

e---------------------------------|

B---------------------------------|

G---------------------------------|

D-2-3-0-2-------------------------|

A---------3-5-3-0-----------------|

E---------------------------------|

e---------------------------------|

B---------------------------------|

G---------------------------------|

D--2---2---2---2-0------2-2-------|

A----0---0---0------3-2-----3-2-0-|

E---------------------------------|

Added by tabs-database.com and our distinguished partners

Get this song at:  amazon.com sheetmusicplus.com

Share your thoughts

0 Comments found