Theme Music

Theme Music - Oompa Lumpa guitar tab

tabs-database.com[http://www.tabs-database.com.com/]

OOMPA LUMPA

|-------------------------------------------|-------------------------------------------

|-------------------------------------------|-------------------------------------------

|-------------------------------------------|-------------------------------------------

|-------------------------------------------|-------------------------------------------

|-2---2---2---2--0---0--0------2--2---------|-2---2---2---2--0---0--0------2--2---------

|---0---0---0------3------3--2------3--0--2-|---0---0---0------3------3--2------3--2--0-

|-------------------------------------------|-------------------------------------------

|-------------------------------------------|-------------------------------------------

|-------------------------------------------|-------------------------------------------

|-2-2-4-2-2-4-5-4-2-0-----------------------|-2-2-4-2-2-4-5-4-2-0---------------------0-

|---------------------0-0-2-0-0-2-3-2-0-0---|---------------------0-0-2-0-0-2-3---0-----

|-------------------------------------------|-------------------------------------------

|---------

|---------

|---------

|---------

|-2302----

|-----350-

|-------------------------------------------||

|-------------------------------------------||

|-------------------------------------------||

|-------------------------------------------||

|-2---2---2---2--0---0--0------2--2---------||

|---0---0---0------2------3--2------3--2--0-||

if u have ant comments email me at webmaster at tabs-database.com.com

Added by tabs-database.com and our distinguished partners

Get this song at:  amazon.com sheetmusicplus.com

Share your thoughts

0 Comments found