Theme Music

Theme Music - Old Mcdonald guitar tab

tabs-database.com[http://www.tabs-database.com.com/]

Hi. This is my little cheapo version of Old McDonald that I figured out in less than 5 minutes when my friend Travis slept over. It\\'s pretty good though.

e|-----------------------------------------------------------------|

B|-----------------------------------------------------------------|

G|--0-0-0-------------4-4-2-2-0-----0-0-0--------------4-4-2-2-0---|

D|---------0-2-2-0----------------0---------0-2-2-0----------------|

A|-----------------------------------------------------------------|

E|-----------------------------------------------------------------|

e|-----------------------------------------------------------------------------------|

B|-----------------------------------------------------------------------------------|

G|------0-0-0-------0-0-0--0-0-0--0-0-0--0-0-0-0-0-0---0-0-0-------------4-4-2-2-0---|

D|--0-0---------0-0-------------------------------------------0-2-2-0----------------|

A|-----------------------------------------------------------------------------------|

E|-----------------------------------------------------------------------------------|

That\\'s it. Have fun.

Added by tabs-database.com and our distinguished partners

Get this song at:  amazon.com

Share your thoughts

0 Comments found