Theme Music

Theme Music - Old Man Six Flags guitar tab

tabs-database.com[http://www.tabs-database.com.com/]

e-----5--3--5--3--5----------------------5--3--5--3--5------------------------5--3--5--3--5--7--7--5--3--5--3

b-------------------------------5--5------------------------------5--5-------------------------------------------

g----------------------------------------

d---------------------------------------

a-------------------------------------

E---------------------------------------

e-----7--7--5--3--5--3--5------------------------5--3--5--3--5--------------------------5--3--5--3--5--7--7

b-------------------------------------5--5----------------------------------5--5--------------------------

g

d

a

E

REPEAT

Added by tabs-database.com and our distinguished partners

Get this song at:  amazon.com sheetmusicplus.com

Share your thoughts

0 Comments found