Theme Music

Theme Music - Ode To Joy guitar tab

tabs-database.com[http://www.tabs-database.com.com/]

"Ode To Joy"

Tabbed: Micah Geertson

*this is the classical way to play it with chords and not just single notes*

E-0-0-1-3-3-1-0---------0-0----

B-1-1-----------3-1-1-3---1-3-3

G-0-0---------------------0----

D------------------------------

A------------------------------

E------------------------------

E-0-0-1-3-3-1-0--------0-----0-

B-1-1----------3-1-1-3---3-1-1-

G-0-0------------------------0-

D------------------------------

A------------------------------

E------------------------------

Added by tabs-database.com and our distinguished partners

Get this song at:  amazon.com sheetmusicplus.com

Share your thoughts

0 Comments found