Theme Music

Theme Music - Norwgian Nathional Anthem guitar tab

|------0--------------------------------------------------------0-------2------0-------------------------------

|------------3------2------0-------------------2------3------------------------------3-----2-----------------

|------------------------------------2-----4--------------------------------------------------------------------

|----------------------------------------------------------------------------------------------------------------|----------------------------------------------------------------------------------------------------------------|----------------------------------------------------------------------------------------------------------------

|------2-------0----------------------------------------------0--------0------2---2--------4------5----------

|--------------------3------2------0-------2-------3-----------------------------------------------------------

|----------------------------------------------------------------------------------------------------------------|----------------------------------------------------------------------------------------------------------------|----------------------------------------------------------------------------------------------------------------|----------------------------------------------------------------------------------------------------------------

|-----5-----5------4-----4------2----2-------0----------------2------2------0-----0-------------------------

|----------------------------------------------------------2-----------------------------------3----------------

|----------------------------------------------------------------------------------------------------------------|----------------------------------------------------------------------------------------------------------------|----------------------------------------------------------------------------------------------------------------|----------------------------------------------------------------------------------------------------------------

|----0----0--0-----2----2------4----4----5---------5----5----4-----5------7--------------------------------

|----------------------------------------------------------------------------------------------------------------|----------------------------------------------------------------------------------------------------------------|----------------------------------------------------------------------------------------------------------------|----------------------------------------------------------------------------------------------------------------|----------------------------------------------------------------------------------------------------------------

|-----7------7-----7--------9------10------9-------7-------5------4------2-----0----2---2------4------5--

|----------------------------------------------------------------------------------------------------------------|----------------------------------------------------------------------------------------------------------------|----------------------------------------------------------------------------------------------------------------|----------------------------------------------------------------------------------------------------------------|----------------------------------------------------------------------------------------------------------------

Get this song at:  amazon.com sheetmusicplus.com

Share your thoughts

0 Comments found