Theme Music

Theme Music - Nokia Ringtone guitar tab

-0-----------|-------------|-------------|-------------|----------------------

---3---------|-2p0---------|-0-----------|-------------|----------------------

---------1---|-------------|---2---------|-2-----------|----------------------

-----4-------|-----0---2---|---------2---|-------------|----------------------

-------------|-------------|-----4-------|-------------|----------------------

-------------|-------------|-------------|-------------|----------------------

-0-----------|-------------|-------------|-------------|----------------------

---3---------|-2p0---------|-0-----------|-------------|----------------------

---------1---|-------------|---2---------|-2-----------|----------------------

-----4-------|-----0---2---|---------2---|-------------|----------------------

-------------|-------------|-----4-------|-------------|----------------------

-------------|-------------|-------------|-------------|----------------------

Get this song at:  amazon.com sheetmusicplus.com

Share your thoughts

0 Comments found