Theme Music

Theme Music - National Antheme guitar tab

tabs-database.com[http://www.tabs-database.com.com/]

This is very easy and you will be playing in minutes.

A good version for acustic players but is fun no

matter what you play. Standered tuning.

plz rate:)

|--------------------|-----------------------------|

|--------------------|-----------------------------|

|--------------------|-----------------------------|PLAY 2 TIMES

|--0---0-5-9-7-5-----|----0-0-9-7-5-4--2-4-5-5-----|

|---2-2---------2-4-5|------------------------5-2--|

|----3---------------|-------------------------3---|

|-----------------------------------------------------|

|-----------------------------------------------------|

|-----------------------------------------------------|

|--9--9-9--10-12--10-9-7-10-10--10-9-7-5-4---2-4-5----|

|-------------------------------------------------5-2-|

|----------------------------------------------------3|

|---------------------------------|----------------------------------|

|---------------------------------|----------------------------------|

|---------------------------------|----------------------------------|

|-0-5-5-5-4-2-2-2--7-9-10-9-7-5-4-|--0-0-5-7-9-10-12--5-7-9-10-7-(5)-|

|---------------------------------|----------------------------------|

|---------------------------------|----------------------------------|

Added by tabs-database.com and our distinguished partners

Get this song at:  amazon.com

Share your thoughts

0 Comments found