Theme Music

Theme Music - Napoleon Dynamite guitar tab

tabs-database.com[http://www.tabs-database.com.com/]

e-----6---7---6----------6---7---6-----------6---7---6------------------------------------------------------------

B-----------------7-------------------7-------------------7----9-----6----7---------------------------------------

G-----------------------------------------------------------------------------------------------------------------

D-----------------------------------------------------------------------------------------------------------------

A-----------------------------------------------------------------------------------------------------------------

E-----------------------------------------------------------------------------------------------------------------

e-----8---9---8----------8---9---8-----------8---9---8--------------6---7---6----------6---7----6-----------------

B-----------------9------------------9-------------------9----------------------7--------------------7------------

G-----------------------------------------------------------------------------------------------------------------

D-----------------------------------------------------------------------------------------------------------------

A-----------------------------------------------------------------------------------------------------------------

E-----------------------------------------------------------------------------------------------------------------

e------6---7-----6---------------------------------------------------------------------------------------------

B---------------------7-------------------------------------------------------------------------------------------

G-----------------------------------------------------------------------------------------------------------------

D-----------------------------------------------------------------------------------------------------------------

A-----------------------------------------------------------------------------------------------------------------

E-----------------------------------------------------------------------------------------------------------------

this is prety close and its my first tab so bare with me...........PLEASE RATE!

Added by tabs-database.com and our distinguished partners

Get this song at:  amazon.com sheetmusicplus.com

Share your thoughts

0 Comments found