Theme Music

Theme Music - Mortal Kombat Theme guitar tab

tabs-database.com[http://www.tabs-database.com.com/]

Tabbed by: BigDumbDude123

I spent a while listening to the SNES game, watching the movie, listening to the techno version and listening to the midi to get this right. I’m pretty sure on it. Its pretty simple, but you still need quick hands. And it’s easier to play while you’re listening to the song.

Intro

e------------------0-----------0-----3-----0------------------------------------------------------

B-------1-----3-------3---1--1-----1-----1---1--------0-----1-----3--1--------------1-----1--0---- X2

G-2--2-----2-----2------------------------------0--0-----0-----0--------------2-------------------

D-----------------------------------------------------------------------3--3-----3-----3----------

A-------------------------------------------------------------------------------------------------

E-------------------------------------------------------------------------------------------------

e------------------------------------------------------------------------------------------------------

B------------------------------------------------------------------------------------------------------ X 2

G------------------------------------------------------------------------------------------------------

D------------------------------------------------------------------------------------------------------

A-0---0---0----0------3----0---0---0---0----------0---0---0---0-------3----0---0---0---0----0-0-0-0-0--

E------------------3-------------------------3-0--------------------3----------------------------------

( play fast )

e-------------------------|-------------------------

B-------------------------|

Get this song at:  amazon.com sheetmusicplus.com

Share your thoughts

0 Comments found