Theme Music

Theme Music - Morrowind 3 Theme guitar tab

tabs-database.com[http://www.tabs-database.com.com/]

Morrowind theme

1st part

E -----------------------------------------

B -----------------------------------------

G ----------------------0------------------

D -------------0--2--2-----0--2--0---------

A -0--2--3--3-----------------------3--2--0

E -----------------------------------------

2nd part

E -----------------------------------------

B ----------------------------0--------0---

G ----------------------0--2-----2--0-----2

D -------------0--2--2---------------------

A -0--2--3--3------------------------------

E -----------------------------------------

E -----------------------------------------------

B ----0--1--0------------------------------------

G -2-----------2--0------------------------------

D -------------------3--2--0--------2--0---------

A ----------------------------0--3--------3--2--0

E -----------------------------------------------

Added by tabs-database.com and our distinguished partners

Get this song at:  amazon.com sheetmusicplus.com

Share your thoughts

0 Comments found