Theme Music

Theme Music - Morning Mood guitar tab

tabs-database.com[http://www.tabs-database.com.com/]

Tuning:standard

tabbed by:hunter

email:webmaster at tabs-database.com.com

e|---12p9-7-5-7-9--12p9-7-5-7h9p7h9--12-9-12-14-9-14-12-9-7-5----------------|

B|---------------------------------------------------------------------------|

G|-------------------------------------------------------------------9-7-5---|

D|---------------------------------------------------------------------------|

A|---------------------------------------------------------------------------|

E|---------------------------------------------------------------------------|

e|---------------------------------------------------------------------------|

B|---12p9-7-5-7-9--12p9-7-5-7h9p7h9--12-9-12-14-9-14-13-10-8-6---------------|

G|----------------------------------------------------------------10-8-6-----|

D|---------------------------------------------------------------------------|

A|---------------------------------------------------------------------------|

E|---------------------------------------------------------------------------|

e|---12p9-7-5-7-9--12p9-7-5-7h9p7h9--12-9-12-13-9-13-12-9-7-5----------------|

B|---------------------------------------------------------------------------|

G|-------------------------------------------------------------------9-7-5---|

D|---------------------------------------------------------------------------|

A|---------------------------------------------------------------------------|

E|---------------------------------------------------------------------------|

e|---------------------------------------------------------------------------|

B|---12p9-7-5-7-9--12p9-7-5-7h9p7h9--12-9-12-13-9-13-14-12-9-7---------------|

G|-------------------------------------------------------------------9-7-5---|

D|---------------------------------------------------------------------------|

A|---------------------------------------------------------------------------|

E|---------------------------------------------------------------------------|

Added by tabs-database.com and our distinguished partners

Get this song at:  amazon.com sheetmusicplus.com

Share your thoughts

0 Comments found