Theme Music

Theme Music - Monkey Island Theme guitar tab

tabs-database.com[http://www.tabs-database.com.com/]

#---------------------------------PLEASE NOTE----------------------------------#

#--That-Monkey-Island-was-the-best-game-ever-created-and-anyone-who-disagrees--#

#should-have-their-hard-drive-formatted-:[-----they should also be force-fed-#

#------------------------------------------------------------------------------#

#----moon pies and only be allowed to play with penny whistles for eternity----#

#--------------------Wait-a-second…-penny-whistles-are-fun!--------------------#

Title: Monkey Island Theme (Lead Pan Flute Arranged for Guitar)

Composed By: Michael Land

Instrument: 6 String Guitar

Tabbed by: Billie Magelssen (webmaster at tabs-database.com.com)

Tuning: Standard (E A D G B E)

I'm pretty sure that this tab is 100% correct, but there are always alternate fingerings for any of these parts (I have 2 different ones incorporated in this tab, but you can use either one at anytime that the main part comes on in the song). I tabbed this all out by my self, using the MI Theme Midi and a program Called CakeWalk. If you people have any comments corrections/suggestions/additions please give me an E-Mail, I would love to hear from you. Oh yeah, and this isn't based on Eduardo's awesome rendition of the song, just the midi :) Enjoy!

Oh, and one more thing, I would REALLY suggest listening to the recording for timing.

DEEP IN THE CARIBBEAN...

(sorry, I just couldn’t help myself:])

E|-------------------------------------------------------------------||

B|-5-5-8-7-5-3-5--3-3-1-0-3-1-1-0------------------------------------||

G|-------------------------------------------------------------------||

D|-------------------------------------------------------------------||

A|-------------------------------------------------------------------||

E|-------------------------------------------------------------------||

E|-------------------------------------------------------------------||

B|-5-5-8-7-5-3-5--7-8-8-10-hold--7-8-7-5-3-5-8-8-7-------------------||

G|-------------------------------------------------------------------||

D|-------------------------------------------------------------------||

A|-------------------------------------------------------------------||

E|-------------------------------------------------------------------||

E|-------------------------------------------------------------------||

B|-5-8-7-5-3-5-8-8-7---5-8-7-5-3-5-5-5--3-3-1-0-3-1-1-0--------------||

G|-------------------------------------------------------------------||

D|-------------------------------------------------------------------||

A|-------------------------------------------------------------------||

E|-------------------------------------------------------------------||

(play a little faster)

E|-------8------8-7-5-8-7-------3-5-------5-7-5-3-5-7-3-3-0-0--------||

B|-(0-3)---8-8------------8-8-------3-3------------------------------||

G|-------------------------------------------------------------------||

D|-------------------------------------------------------------------||

A|-------------------------------------------------------------------||

E|-------------------------------------------------------------------||

E|-2-3-5 hold--3-hold---2-3-hold--8-hold--10-hold--------------------||

B|-------------------------------------------------------------------||

G|-------------------------------------------------------------------||

D|-------------------------------------------------------------------||

A|-------------------------------------------------------------------||

E|-------------------------------------------------------------------||

E|-0-0-3-2-0---0-hold------------------------------------------------||

B|-----------3----------3-3-1-0-3-1-1-0------------------------------||

G|-------------------------------------------------------------------||

D|-------------------------------------------------------------------||

A|-------------------------------------------------------------------||

E|-------------------------------------------------------------------||

E|-0-0-3-2-0---0-hold--0-2-3-3-5-hold--------------------------------||

B|-----------3-------------------------------------------------------||

G|-------------------------------------------------------------------||

D|-------------------------------------------------------------------||

A|-------------------------------------------------------------------||

E|-------------------------------------------------------------------||

(listen to recording here especially)

E|-2-3-2-0---0-3-3-2--X2-then---0-3-2-0---0-0-0-hold-3-1-0-1-0-hold--||

B|---------3----------------------------3----------------------------||

G|-------------------------------------------------------------------||

D|-------------------------------------------------------------------||

A|-------------------------------------------------------------------||

E|-------------------------------------------------------------------||

The Ending! (played quickly)

E|-0-0-3-2-0---0-0-hold--3-5-3-2-5-3-0-2-----------------------------||

B|-----------3-------------------------------------------------------||

G|-------------------------------------------------------------------||

D|-------------------------------------------------------------------||

A|-------------------------------------------------------------------||

E|-------------------------------------------------------------------||

Added by tabs-database.com and our distinguished partners

Get this song at:  amazon.com sheetmusicplus.com

Share your thoughts

0 Comments found