Theme Music

Theme Music - Misc Riff guitar tab

Themes - Metroid Emergency

Submitted By: Jim

Hi there im Jim as you may have guessed and i put this tab up since

i find metroid the greatest game ever! heres the emergency tune for

super metroid, metroid fusion, and im not certain about metroid prime

though. its alot easier than i thought and it is only by memory so

me some slack and i hate a one-word line so ill fil it in you do not

have to worry.~~~~~~~~~~~~~~~~~~~~~~~~~~~~~~~~~~~~~~~~~~~~~~~~~~~~~~

you probably know this already h=hammer on p= pull off

e|-------------------------------------------------------------------

B|-------------------------------------------------------------------

G|-------------------------------------------------------------------

D|-2-2--4--0---2-2--4--0---------------------------------------------

A|------------------------4-4--5--2---4-4--5--2----------------------

E|-------------------------------------------------------------------

e|-------------------------------------------------------------------

B|-6-6h7p6-----6-6h7p6-----8-8h9p8-----9-9--11-----------------------

G|---------6-6---------6-6---------8-8-------------------------------

D|-------------------------------------------------------------------

A|-------------------------------------------------------------------

E|-------------------------------------------------------------------

Get this song at:  amazon.com

Share your thoughts

0 Comments found