Theme Music

Theme Music - Metroid Theme Song guitar tab

tabs-database.com[http://www.tabs-database.com.com/]

Theme Music

Metroid Theme Song

Tabbed by fingerpickin727

Key of C

Riff #1 3/4 Time

E E E Q. E E E Q. E E E Q. E E E Q. E E E Q. E E E Q.

E- |----------|----------|----------|----------|----------|----------|

B- |----------|----------|----------|----------|3-3-3-3---|1-1-1-1---|

G- |----------|5-5-5-5---|0-0-0-0---|----------|----------|----------|

D- |2-2-2-2---|----------|----------|2-2-2-2---|----------|----------|

A- |----------|----------|----------|----------|----------|----------|

E- |----------|----------|----------|----------|----------|----------|

Riff #2 5/4 Time

Q E E. E E E E. E

E- |-------------------------|

B- |-------------------------|

G- |---5--4----0----2--0-----|

D- |2--------2----2----------|

A- |-------------------------|

E- |-------------------------|

Riff #1 1x

Riff #2 1x

Repeat Alternation

Q=Quarter Note

E=Eigth Note

.= Extends Note Value By Half

Please rate this, as it is my first tab.

Enjoy!

Added by tabs-database.com and our distinguished partners

Get this song at:  amazon.com sheetmusicplus.com

Share your thoughts

0 Comments found