Theme Music

Theme Music - Max Payne Theme guitar tab

tabs-database.com[http://www.tabs-database.com.com/]

1-------------------9-----------------------------------------

2---------8slide-9----9-----11----12---9---7------------------REPAET 2 TIMES

3----6----------------------------------------5-slide--6---6--

4-------------------------------------------------------------

5-------------------------------------------------------------

6-------------------------------------------------------------

1-------------------9-----------------------------------------

2---------8-slide-9----9----11---12----9----7-----------------

3----6----------------------------------------5-slide--6---6--

4-------------------------------------------------------------

5-------------------------------------------------------------

6-------------------------------------------------------------

by Georgio

Added by tabs-database.com and our distinguished partners

Get this song at:  amazon.com sheetmusicplus.com

Share your thoughts

0 Comments found