Theme Music

Theme Music - Match Of The Day guitar tab

tabs-database.com[http://www.tabs-database.com.com/]

Match of the Day - Football Theme Tune

Tab by Paul Humphrey

Tuning : E A D G B E

|------------------|------------------|------------------|

|-------------0----|-3-----0-0---0----|-0---0-------1----|

|---------0--------|------------------|------------------|

|-----0------------|------------------|------------------|

|------------------|------------------|------------------|

|------------------|------------------|------------------|

|------------------|------------------|------------------|

|-3-----0-----0----|-1----------------|-1----------------|

|---------2--------|-------------2----|-------2-2---2----|

|------------------|-----0---4--------|------------------|

|------------------|------------------|------------------|

|------------------|------------------|------------------|

|------------------|------------------|------------------|

|-------------0----|-1----------------|-0-----------0----|

|-2---2------------|-------2-0---2----|---------0--------|

|------------------|------------------|-----0------------|

|------------------|------------------|------------------|

|------------------|------------------|------------------|

|------------------|------------------|------------------|

|-3-----0-0---0----|-0---0-------1----|-3-----0-1---3----|

|------------------|------------------|------------------|

|------------------|------------------|------------------|

|------------------|------------------|------------------|

|------------------|------------------|------------------|

|-0-------0---2----|-3---3-2---2-0----|-3-----------0----|

|------------------|------------------|-----3---3--------|

|------------------|------------------|------------------|

|------------------|------------------|------------------|

|------------------|------------------|------------------|

|------------------|------------------|------------------|

|------------------|------------------|

|-3---1-0---0------|------------------|

|-------------2----|-0----------------|

|------------------|------------------|

|------------------|------------------|

|------------------|------------------|

This is my first tab so please rate.

Any problems please E-Mail me at, webmaster at tabs-database.com.com.

Added by tabs-database.com and our distinguished partners

Get this song at:  amazon.com sheetmusicplus.com

Share your thoughts

0 Comments found