Theme Music

Theme Music - Mary Had Seven Lambs guitar tab

tabs-database.com[http://www.tabs-database.com.com/]

Mary Had A Little Lamb

|-------------------------------|

|--------------------------8-8--|

|--9-7-----7-9-9-9-7-7-7-9------|

|------10-----------------------|

|-------------------------------|

|-------------------------------|

|-------------------------------|

|-------------------------------|

|--9-7----7-9-9-9-9-7-7-9-7-----|

|------10-------------------10--|

|-------------------------------|

|-------------------------------|

tabbed by:

Travis Spicuzza

Added by tabs-database.com and our distinguished partners

Get this song at:  amazon.com

Share your thoughts

0 Comments found