Theme Music

Theme Music - Mario Theme Song guitar tab

tabs-database.com[http://www.tabs-database.com.com/]

tabs-database.com[http://www.tabs-database.com.com/]

Super Mario Theme

~~~~=Vibrato

e|-0-0-0---0-3-------------------0-3-5-1-3-0----------

B|-------1-------1---------------------------1-3-0----

G|-------------0---0---2-4-3-2-0----------------------

D|-------------------2--------------------------------

A|----------------------------------------------------

E|----------------------------------------------------

e|-3-2-1------------------3-2-1-----8-8-8~~-----------

B|-------4-5-----1---1-3--------4-5-------------------

G|-----------1-2---2----------------------------------

D|----------------------------------------------------

A|----------------------------------------------------

E|----------------------------------------------------

Enjoy and please rate a five!!!

-Rickenbacker620

Added by tabs-database.com and our distinguished partners

Get this song at:  amazon.com sheetmusicplus.com

Share your thoughts

0 Comments found