Theme Music

Theme Music - Magic Roundabout Theme guitar tab

Yes yes yes it's not a guitar piece but who can argue with a roundabout that trippy?

e|-----------------------|--------------------------|

b|--13---13-13-----------|--------------------------|

g|-------------12---12---|---14-14-14-14--10---10---|

d|-----------------------|--------------------------|

a|-----------------------|--------------------------|

E|-----------------------|--------------------------|

e|-----------------------|--------------------------|

b|--11--11-11------------|--12-12-12----------------|

g|-------------10---10---|-----------12---12--------|

d|-----------------------|--------------------------|

a|-----------------------|--------------------------|

E|-----------------------|--------------------------|

Brought to you by the Bean

bigearedbean@hotmail.com

Please e-mail me with any complaints, queries or requests

Ta Muchly

Get this song at:  amazon.com sheetmusicplus.com

Share your thoughts

0 Comments found