Theme Music

Theme Music - Lost And Delirious guitar tab

Lost and Delirious

Marys Theme

Tabbed by: Jessi

Tuned to Eb, Bb, Gb, Db, Ab, Eb

If you have any questions feel free to e-mail me at

frizz_age@hotmail.com

Enjoy!

eb -----------------------------------------------------------------------------

Bb -----------------------------------------------------------------------------

Gb -----------------------------------------------------------------------------

Db -----0-2-----0-5-----0-2-----2/3-2-------0-2-----0-5-----0-2-------3-2-------

Ab ---2-------2-------2-------2-----------2-------2-------2---------2-----------

Eb -2-------2-------2-------2-----------2-------2-------2---------2-------------

eb -----------------------------------------------------------------------------

Bb -----------------------------------------------------------------------------

Gb -----------------------------------------------------------------------------

Db -----0-5-----0-5-----0-5-----2/3-2--------0-5-----0-5-----0-5------3-2-------

Ab ---2-------2-------2-------2------------2-------2-------2--------2-----------

Eb -2-------2-------2-------2------------2-------2-------2--------2-------------

eb -----------------------------------------------------------------------------

Bb -----------------------------------------------------------------------------

Gb -----------------2p0--------------2p0----------------------------------------

Db ------0-5------0---------0-5---------------0-5------0-5-----0-5-------0------

Ab ----2--------2---------2--------2--------2--------2-------2---------2--------

Eb --2--------2---------2--------2--------2--------2-------2---------2----------

eb -----------------------------------------------------------------------------

Bb -----------------------------------------------------------------------------

Gb ----------------2p0--------------2p0-----------------------------------------

Db ------0-5-----0----------0-5-------------0-5-----0-5-----0-5------0----------

Ab ----2-------2----------2-------2-------2-------2-------2--------2------------

Eb --2-------2----------2-------2-------2-------2-------2--------2--------------

Get this song at:  amazon.com sheetmusicplus.com

Share your thoughts

0 Comments found