Theme Music

Theme Music - La Cucaracha guitar tab

tabs-database.com[http://www.tabs-database.com.com/]

La Cucaracha

Tabbed By:Alberto

This is a piece of cake song anyone should be able to play it. play it however many times you want.

e|-------------------------------------------------------|

b|--------------12------------12-------------------------|

g|----------12------------12------12-12-11-11-9-9--------|

d|----12-12---------12-12-------------------------12~----|

a|-------------------------------------------------------|

e|-------------------------------------------------------|

e|-------------------------------------------------------|

b|-------------10-----------10---------------------------|

g|----------11-----------11-------17-17--16-16--14-14--12|

d|----12-12--------12-12---------------------------------|

a|-------------------------------------------------------|

e|-------------------------------------------------------|

e|-------------------------------------------------------|

b|--------------12------------12-------------------------|

g|----------12------------12------12-12-11-11-9-9--------|

d|----12-12---------12-12-------------------------12~----|

a|-------------------------------------------------------|

e|-------------------------------------------------------|

e|-------------------------------------------------------|

b|-------------10-----------10---------------------------|

g|----------11-----------11-------17-17--16-16--14-14--12|

d|----12-12--------12-12---------------------------------|

a|-------------------------------------------------------|

e|-------------------------------------------------------|

Added by tabs-database.com and our distinguished partners

Get this song at:  amazon.com sheetmusicplus.com

Share your thoughts

0 Comments found