Theme Music

Theme Music - King Of The Hill Theme Song guitar tab

tabs-database.com[http://www.tabs-database.com.com/]

King Of The Hill Theme Song

standard tuning

very easy enjoy and plaese rate

e:------------------------------------

B:------------------------------------

G:------------------------------------

D:------------------------------------

A:---------------------------------4-2

E:-0-0-0-0-0-0-4-0-0-0-0-0-5-5-5-5----

e:----------------------------------------------

B:----------------------------------------------

G:----------------------------------------------

D:----------------------------------------------

A:----------------------------------------------

E:-0-0-0-0-0-0-4-0-0-0-0-0-5-5-5-4-4-4-2-2-2-4-2

e:--------------------------------------------------------------------

B:--------------------------------------------------------------------

G:--------------------------------------------------------------------

D:--------------------------------------2-2-2-------------------------

A:----------------------------------4-2-------4-4-4-2-2-2-------------

E:-0-0-0-0-0-0-4-0-0-0-0-0-5-5-5-5------------------------5-5-5-4-4-4-5-4-2-0

e:-4--4--4--4--4--4--4--4>5---5-5-5-5-5-5-5-5-5-5-5-5-5---------------

B:-5--5--5--5--4--4--4--4>5---5-5-5-5-5-5-5-5-5-5-5-5-5---------------

G:-6--6--6--6--5--5--5--5>6---6-6-6-6-6-6-6-6-6-6-6-6-6---------------

D:-6--6--6--6--6--6--6--6>7---7-7-7-7-7-7-7-7-7-7-7-7-7---------------

A:-4--4--4--4--6--6--6--6>7---7-7-7-7-7-7-7-7-7-7-7-7-7---------------

E:-x--x--x--x--4--4--4--4>5---5-5-5-5-5-5-5-5-5-5-5-5-5-7-7-7-5-5-5-4-4-4-2-2-2

Repeat lines 1-3

and then end with the E major cord which is-

e:-0-0

B:-0-0

G:-1-1

D:-2-2

A:-2-2

E:-0-0

Added by tabs-database.com and our distinguished partners

Get this song at:  amazon.com sheetmusicplus.com

Share your thoughts

0 Comments found