Theme Music

Theme Music - Kakariko Village guitar tab

Theme Songs

Kakariko Village

Tabber: jordexciu@hotmail.com

Play both guitars together, it's hard to read at first but you'll

understand it once you look at it carefully.

First Guitar:

e|-------------|-------------|-------------|-------------|

bar B|-------2-----|-------------|-------5-----|-------------|

one G|-----2---2---|-------2-----|-----2-------|-------7-----|

D|---2-------2-|-----4---4---|---4-----7---|-----9---9---|

A|-0-----------|---4-------4-|-2---------9-|---7-------7-|

E|-------------|-2-----------|-------------|-0-----------|

e|-------------|-------------|-------------|-------------|

bar B|-------------|-------------|-------5-----|-------------|

two G|-------6-----|-------2-----|-----2-------|-------7-----|

D|-----7---7---|-----4---4---|---4-----7---|-----9---9---|

A|---7-------7-|---4-------4-|-2---------9-|---7-------7-|

E|-5-----------|-2-----------|-------------|-0-----------|

Keep Playing

Second Guitar:

e|-------------|-------------|-------------|-------------|

bar B|-------------|-------------|-------------|---------5---|

one G|-------------|-------------|-------------|-------------|

D|-------------|-------------|-------------|-------------|

A|-------------|-------------|-------------|-------------|

E|-------------|-------------|-------------|-------------|

e|-5-------0---|-9-----------|-12----------|-------------|

bar B|-------------|---------10--|-------------|---------5---|

two G|-------------|-------------|-------------|-------------|

D|-------------|-------------|-------------|-------------|

A|-------------|-------------|-------------|-------------|

E|-------------|-------------|-------------|-------------|

First Guitar:

e|-------------|-------------|-------------|-------------|

bar B|-------------|-------------|-------5-----|-------------|

three G|-------6-----|-------2-----|-----2-------|-------7-----|

D|-----7---7---|-----4---4---|---4-----7---|-----9---9---|

A|---7-------7-|---4-------4-|-2---------9-|---7-------7-|

E|-5-----------|-2-----------|-------------|-0-----------|

e|-0-----------|-------------|-------------|-------------|

bar B|-------------|-------------|-------------|-------------|

four G|-------------|-------------|-------------|-----2---2---|

D|-----7---7---|-----6---6---|-----7---7---|-------------|

A|-------9-----|-------7-----|---7---7-----|---4---4-----|

E|---5---------|-0-7---------|-5-----------|-2-----------|

Second Guitar:

e|-5-------0---|-9-----------|-12----------|---------12--|

bar B|-------------|---------10--|-------------|-------------|

three G|-------------|-------------|-------------|-------------|

D|-------------|-------------|-------------|-------------|

A|-------------|-------------|-------------|-------------|

E|-------------|-------------|-------------|-------------|

e|-14----------|--------14---|-12----------|-------------|

bar B|-------------|-13----------|-------------|-14----------|

four G|-------------|-------------|-------------|-------------|

D|-------------|-------------|-------------|-------------|

A|-------------|-------------|-------------|-------------|

E|-------------|-------------|-------------|-------------|

First Guitar:

e|-------------|-------------|-------------|-------------|

bar B|-------------|-------------|-------------|-------------|

five G|-----2---2---|-----1---1---|-----2---2---|-----2---2---|

D|---4---4-----|-------------|---2---2-----|---2---2-----|

A|-2-----------|---2---2-----|-0-----------|-0-----------|

E|-------------|-0-----------|-------------|-------------|

e|-------------|-------------|-------------|-------------|

bar B|-------2-----|-------------|-------5-----|-------------|

six G|-----2---2---|-------2-----|-----2-------|-------7-----|

D|---2-------2-|-----4---4---|---4-----7---|-----9---9---|

A|-0-----------|---4-------4-|-2---------9-|---7-------7-|

E|-------------|-2-----------|-------------|-0-----------|

Second Guitar:

e|-------------|-------------|-------------|-------------|

bar B|-14----------|-14------12--|-10----------|-------------|

five G|-------------|-------------|-------------|---------9---|

D|-------------|-------------|-------------|-------------|

A|-------------|-------------|-------------|-------------|

E|-------------|-------------|-------------|-------------|

e|-------------|-9-----------|-12----------|-------------|

bar B|-10----------|---------10--|-------------|---------5---|

six G|---------9---|-------------|-------------|-------------|

D|-------------|-------------|-------------|-------------|

A|-------------|-------------|-------------|-------------|

E|-------------|-------------|-------------|-------------|

Repeat From Bar two

Get this song at:  amazon.com sheetmusicplus.com

Share your thoughts

0 Comments found