Theme Music

Theme Music - Irish Jigg guitar tab

Irish theme

very easy,

tabbed by kyle w

arggggg!

-----------------------------------------------------

-----------------------------------------------------

----------------------------------------------2------

-----4---0---2-----------------4----0----2 2---------

--2--------------4-------2---------------------------

-----------------------------------------------------

--------------------------------------------------------

--------------------------------------------------------

--------------------------------------------------------

-----4----0----2---------------2------------------------

--2---------------4------0-0--------4--2---2------------

--------------------------------------------------------

Get this song at:  amazon.com sheetmusicplus.com

Share your thoughts

0 Comments found