Theme Music

Theme Music - I Bet You Will guitar tab

Song: I Bet you will

Tabber: jsg

E|------------------------------------------------------------------|

B|------------------------------------------------------------------|

G|------7--8--10--8--10-12-12-12-12-12-12-12--10--8--7--------------|

D|--10--------------------------------------------------10----------|

A|------------------------------------------------------------------|

E|------------------------------------------------------------------|

E|------------------------------------------------------------------|

B|------------------------------------------------------------------|

G|------7--8--10--8--10-12-12-12-12-12-12-12--10--8--7--------------|

D|--10--------------------------------------------------10----------|

A|------------------------------------------------------------------|

E|------------------------------------------------------------------|

E|------------------------------------------------------------------|

B|------------------------------------------------------------------|

G|-------12-12-12-12-12-12--10--8--7--------------------------------|

D|------------------------------------10----------------------------|

A|------------------------------------------------------------------|

E|------------------------------------------------------------------|

This is my first tab. Hope you like it.

Get this song at:  amazon.com

Share your thoughts

0 Comments found