Theme Music

Theme Music - Holloween Theme guitar tab

tabs-database.com[http://www.tabs-database.com.com/]

This is the best song of all time

Nicely in standard tuneing.

E-12-------12-------12-------12----13-----

B----10-10----10-10----10-10----10----10--

G-----------------------------------------

D-----------------------------------------

A-----------------------------------------

E-----------------------------------------

E-11-----11-----11-----11---12------------

B----9-9----9-9----9-9----9----9----------

G-----------------------------------------

D-----------------------------------------

A-----------------------------------------

E-----------------------------------------

E-10-----10-----10-----10---11------------

B----8-8----8-8----8-8----8----8----------

G-----------------------------------------

D-----------------------------------------

A-----------------------------------------

E-----------------------------------------

E-9-----9-----9-----9---10----------------

B---7-7---7-7---7-7---7----7--------------

G-----------------------------------------

D-----------------------------------------

A-----------------------------------------

E-----------------------------------------

Its pretty much a downward progression like that the rest of the song.

Added by tabs-database.com and our distinguished partners

Get this song at:  amazon.com

Share your thoughts

0 Comments found