Theme Music

Theme Music - Hockey Night In Canada Theme guitar tab

tabs-database.com[http://www.tabs-database.com.com/]

Song: Hockey Night In Canada

Submitted By: Anthony

h - hammer on

p - pull-off

/ - slide up

\\ - slide down

~ - vibrato

b - bend

Standard Tuning (EADGBe)

e|------------------------------------13–13--|

B|-----------------------------13–13---------|

G|-------------------------------------------|

D|------3--3--1-------3-3--1-----------------|

A|–3–3-----------3-3-------------------------|

E|-------------------------------------------|

e|–11—15-------------------------------------|

B|-------------------------------------------|

G|------------------------0------------------|

D|------------------3--1-------------3--1----|

A|---------3--3--3-----------3-3--3----------|

E|-------------------------------------------|

e|-------------------------------------------|

B|-------------------------------------------|

G|–2–0---------------0--2--2-3--2----0--0--1-|

D|----------------3---------------3----------|

A|-------3--3--3-----------------------------|

E|-------------------------------------------|

e|--------3-----------------3-------------5-3|

B|--------0-----------6--4----------6-4------|

G|–0------0--5--5--5----------5-5-5----------|

D|———1----0----------------------------------|

A|--------2----------------------------------|

E|--------3----------------------------------|

e|-----------3--5--5--6--5-------------------|

B|--------5----------------6--8--8--9--8-----|

G|–5–5–5----------------------------------8--|

D|-------------------------------------------|

A|-------------------------------------------|

E|-------------------------------------------|

e|-------------------------------------------|

B|–8—8—11–11-12–13---------------------------|

G|-------------------------------------------|

D|-------------------------------------------|

A|-------------------------------------------|

E|-------------------------------------------|

Hope You like it :-) Please Rate

Any questions email: webmaster at tabs-database.com.com

Added by tabs-database.com and our distinguished partners

Get this song at:  amazon.com

Share your thoughts

0 Comments found