Theme Music

Theme Music - Here Comes The Bride guitar tab

tabs-database.com[http://www.tabs-database.com.com/]

Song: Here Comes The Bride

Tabbed By: ZR1Zoomer

Tuning: Standard (EADGBe)

Single-String Version

e)0-5-5-5--0-7-4-5--0-5-9-12-9-5-2-7-4-5|

B)--------------------------------------|

G)--------------------------------------|

D)--------------------------------------|

A)--------------------------------------|

E)--------------------------------------|

Chord Version

e)----------------------------------------|

B)----------------------------------------|

G)----------------------------------------|

D)2-7-7-7--2-9-6-7--2-7-11-14-11-7-4-9-6-7|

A)2-7-7-7--2-9-6-7--2-7-11-14-11-7-4-9-6-7|

E)0-5-5-5--0-7-4-5--0-5--9-12--9-5-2-7-4-5|

Dropped D Tuning Version (DADGBe)

e)--------------------------------------|

B)--------------------------------------|

G)--------------------------------------|

D)0-5-5-5--0-7-4-5--0-5-9-12-9-5-2-7-4-5|

A)0-5-5-5--0-7-4-5--0-5-9-12-9-5-2-7-4-5|

D)0-5-5-5--0-7-4-5--0-5-9-12-9-5-2-7-4-5|

I think I'll stop there, I could add so many more ways to do this

song but I think that's enough. Play it the way you prefer.

Oh, and please rate this tab.

Added by tabs-database.com and our distinguished partners

Get this song at:  amazon.com sheetmusicplus.com

Share your thoughts

0 Comments found