Theme Music

Theme Music - Heavy Metal Jingle Bells guitar tab

tabs-database.com[http://www.tabs-database.com.com/]

Artist:oldskewlsteve

Song:Jingle Bells

Version:Death Metal

Heavy Distortion YEAH!!!!!!!!!!!

D------------------------------------------------------------------

A------------------------------------------------------------------

F------------------------------------------------------------------

C-9-9-9---9-9-9---9-12-5-7-9---10-10-10-10-10-9-9-9-9-7-7-9-7---12-

G-9-9-9---9-9-9---9-12-5-7-9---10-10-10-10-10-9-9-9-9-7-7-9-7---12-

C-9-9-9---9-9-9---9-12-5-7-9---10-10-10-10-10-9-9-9-9-7-7-9-7---12-

D------------------------------------------------------------------

A------------------------------------------------------------------

F------------------------------------------------------------------

C-9-9-9---9-9-9---9-12-5-7-9---10-10-10-10-10-9-9-9-9-12-12-10-7-5-

G-9-9-9---9-9-9---9-12-5-7-9---10-10-10-10-10-9-9-9-9-12-12-10-7-5-

C-9-9-9---9-9-9---9-12-5-7-9---10-10-10-10-10-9-9-9-9-12-12-10-7-5-

Easy enough please Rate

Added by tabs-database.com and our distinguished partners

Get this song at:  amazon.com sheetmusicplus.com

Share your thoughts

0 Comments found