Theme Music

Theme Music - Harry Potter Theme Song guitar tab

tabs-database.com[http://www.tabs-database.com.com/]

Harry Potter Theme Song

|----0---3-2-0--7--5---2--0--3-2----------|

|-0-------------------------------3--6--0-|

|-----------------------------------------|

|-----------------------------------------|

|-----------------------------------------|

|-----------------------------------------|

|----0---3-2-0--7--10--9--8--5--8--7-6--5s2--3--0-|

|-0-----------------------------------------------|

|-------------------------------------------------|

|-------------------------------------------------|

|-------------------------------------------------|

|-------------------------------------------------|

|-3--7--3--7--3--8--7--6--2--3--8-7-6--2--7-|

|-------------------------------------------|

|-------------------------------------------|

|-------------------------------------------|

|-------------------------------------------|

|-------------------------------------------|

|-3--7--3--7--3--10--9--8--5--8---7-6--5s2--3--0-|

|------------------------------------------------|

|------------------------------------------------|

|------------------------------------------------|

|------------------------------------------------|

|------------------------------------------------|

Added by tabs-database.com and our distinguished partners

Get this song at:  amazon.com sheetmusicplus.com

Share your thoughts

0 Comments found