Theme Music

Theme Music - Harry Potter Theme guitar tab

tabs-database.com[http://www.tabs-database.com.com/]

theme music

harry potter theme song

tabbed by: shwingin56

|------0--3--2--0----7--5--2---0--3--2-----2-----------|

|---0-----------------------------------3-----0--------|

|------------------------------------------------------|

|------------------------------------------------------|

|------------------------------------------------------|

|------------------------------------------------------|

|------0--3--2--0--7--10--9--8--5--8--7--0-----|

|---0------------------------------------------|

|----------------------------------------------|

|----------------------------------------------|

|----------------------------------------------|

|----------------------------------------------|

this song is pretty easy.

i was just messing around one day and poof. i was like cool its harry potter

but thats all there is so just listen to harry potter to get the rhythm.

have fun!!!!!!!!!!

please rate!!!

Added by tabs-database.com and our distinguished partners

Get this song at:  amazon.com sheetmusicplus.com

Share your thoughts

0 Comments found